  0
SECTION
  2
HEADER
  9
$ACADVER
  1
AC1015
  9
$ACADMAINTVER
 70
     6
  9
$DWGCODEPAGE
  3
ANSI_1254
  9
$INSBASE
 10
0.0
 20
0.0
 30
0.0
  9
$EXTMIN
 10
0.0
 20
0.0
 30
0.0
  9
$EXTMAX
 10
279.4
 20
215.9
 30
0.0
  9
$LIMMIN
 10
0.0
 20
0.0
  9
$LIMMAX
 10
279.4
 20
215.9
  9
$ORTHOMODE
 70
     0
  9
$REGENMODE
 70
     1
  9
$FILLMODE
 70
     1
  9
$QTEXTMODE
 70
     0
  9
$MIRRTEXT
 70
     1
  9
$LTSCALE
 40
1.0
  9
$ATTMODE
 70
     1
  9
$TEXTSIZE
 40
3.5
  9
$TRACEWID
 40
1.0
  9
$TEXTSTYLE
  7
Standard
  9
$CLAYER
  8
0
  9
$CELTYPE
  6
ByLayer
  9
$CECOLOR
 62
   256
  9
$CELTSCALE
 40
1.0
  9
$DISPSILH
 70
     0
  9
$DIMSCALE
 40
1.0
  9
$DIMASZ
 40
3.5
  9
$DIMEXO
 40
1.0
  9
$DIMDLI
 40
3.75
  9
$DIMRND
 40
0.0
  9
$DIMDLE
 40
0.0
  9
$DIMEXE
 40
1.0
  9
$DIMTP
 40
0.0
  9
$DIMTM
 40
0.0
  9
$DIMTXT
 40
3.5
  9
$DIMCEN
 40
2.5
  9
$DIMTSZ
 40
0.0
  9
$DIMTOL
 70
     0
  9
$DIMLIM
 70
     0
  9
$DIMTIH
 70
     1
  9
$DIMTOH
 70
     1
  9
$DIMSE1
 70
     0
  9
$DIMSE2
 70
     0
  9
$DIMTAD
 70
     1
  9
$DIMZIN
 70
     0
  9
$DIMBLK
  1

  9
$DIMASO
 70
     1
  9
$DIMSHO
 70
     1
  9
$DIMPOST
  1

  9
$DIMAPOST
  1

  9
$DIMALT
 70
     0
  9
$DIMALTD
 70
     3
  9
$DIMALTF
 40
0.0393700787
  9
$DIMLFAC
 40
1.0
  9
$DIMTOFL
 70
     1
  9
$DIMTVP
 40
0.0
  9
$DIMTIX
 70
     0
  9
$DIMSOXD
 70
     0
  9
$DIMSAH
 70
     0
  9
$DIMBLK1
  1

  9
$DIMBLK2
  1

  9
$DIMSTYLE
  2
ISO-25
  9
$DIMCLRD
 70
     0
  9
$DIMCLRE
 70
     0
  9
$DIMCLRT
 70
     0
  9
$DIMTFAC
 40
1.0
  9
$DIMGAP
 40
1.524
  9
$DIMJUST
 70
     0
  9
$DIMSD1
 70
     0
  9
$DIMSD2
 70
     0
  9
$DIMTOLJ
 70
     0
  9
$DIMTZIN
 70
     0
  9
$DIMALTZ
 70
     0
  9
$DIMALTTZ
 70
     0
  9
$DIMUPT
 70
     0
  9
$DIMDEC
 70
     2
  9
$DIMTDEC
 70
     2
  9
$DIMALTU
 70
     2
  9
$DIMALTTD
 70
     3
  9
$DIMTXSTY
  7
Standard
  9
$DIMAUNIT
 70
     0
  9
$DIMADEC
 70
     2
  9
$DIMALTRND
 40
0.0
  9
$DIMAZIN
 70
     0
  9
$DIMDSEP
 70
    44
  9
$DIMATFIT
 70
     3
  9
$DIMFRAC
 70
     0
  9
$DIMLDRBLK
  1

  9
$DIMLUNIT
 70
     2
  9
$DIMLWD
 70
    -2
  9
$DIMLWE
 70
    -2
  9
$DIMTMOVE
 70
     0
  9
$LUNITS
 70
     2
  9
$LUPREC
 70
     2
  9
$SKETCHINC
 40
1.0
  9
$FILLETRAD
 40
10.0
  9
$AUNITS
 70
     0
  9
$AUPREC
 70
     2
  9
$MENU
  1
.
  9
$ELEVATION
 40
0.0
  9
$PELEVATION
 40
0.0
  9
$THICKNESS
 40
0.0
  9
$LIMCHECK
 70
     0
  9
$CHAMFERA
 40
0.0
  9
$CHAMFERB
 40
0.0
  9
$CHAMFERC
 40
0.0
  9
$CHAMFERD
 40
0.0
  9
$SKPOLY
 70
     0
  9
$TDCREATE
 40
2458985.663566435
  9
$TDUCREATE
 40
2458985.538566435
  9
$TDUPDATE
 40
2458985.66356669
  9
$TDUUPDATE
 40
2458985.53856669
  9
$TDINDWG
 40
0.0000000116
  9
$TDUSRTIMER
 40
0.0000000116
  9
$USRTIMER
 70
     1
  9
$ANGBASE
 50
0.0
  9
$ANGDIR
 70
     0
  9
$PDMODE
 70
     0
  9
$PDSIZE
 40
-1.0
  9
$PLINEWID
 40
0.0
  9
$SPLFRAME
 70
     0
  9
$SPLINETYPE
 70
     6
  9
$SPLINESEGS
 70
     8
  9
$HANDSEED
  5
C2
  9
$SURFTAB1
 70
     6
  9
$SURFTAB2
 70
     6
  9
$SURFTYPE
 70
     6
  9
$SURFU
 70
     6
  9
$SURFV
 70
     6
  9
$UCSBASE
  2

  9
$UCSNAME
  2

  9
$UCSORG
 10
0.0
 20
0.0
 30
0.0
  9
$UCSXDIR
 10
1.0
 20
0.0
 30
0.0
  9
$UCSYDIR
 10
0.0
 20
1.0
 30
0.0
  9
$UCSORTHOREF
  2

  9
$UCSORTHOVIEW
 70
     0
  9
$UCSORGTOP
 10
0.0
 20
0.0
 30
0.0
  9
$UCSORGBOTTOM
 10
0.0
 20
0.0
 30
0.0
  9
$UCSORGLEFT
 10
0.0
 20
0.0
 30
0.0
  9
$UCSORGRIGHT
 10
0.0
 20
0.0
 30
0.0
  9
$UCSORGFRONT
 10
0.0
 20
0.0
 30
0.0
  9
$UCSORGBACK
 10
0.0
 20
0.0
 30
0.0
  9
$PUCSBASE
  2

  9
$PUCSNAME
  2

  9
$PUCSORG
 10
0.0
 20
0.0
 30
0.0
  9
$PUCSXDIR
 10
1.0
 20
0.0
 30
0.0
  9
$PUCSYDIR
 10
0.0
 20
1.0
 30
0.0
  9
$PUCSORTHOREF
  2

  9
$PUCSORTHOVIEW
 70
     0
  9
$PUCSORGTOP
 10
0.0
 20
0.0
 30
0.0
  9
$PUCSORGBOTTOM
 10
0.0
 20
0.0
 30
0.0
  9
$PUCSORGLEFT
 10
0.0
 20
0.0
 30
0.0
  9
$PUCSORGRIGHT
 10
0.0
 20
0.0
 30
0.0
  9
$PUCSORGFRONT
 10
0.0
 20
0.0
 30
0.0
  9
$PUCSORGBACK
 10
0.0
 20
0.0
 30
0.0
  9
$USERI1
 70
     0
  9
$USERI2
 70
     0
  9
$USERI3
 70
     0
  9
$USERI4
 70
     0
  9
$USERI5
 70
     0
  9
$USERR1
 40
0.0
  9
$USERR2
 40
0.0
  9
$USERR3
 40
0.0
  9
$USERR4
 40
0.0
  9
$USERR5
 40
0.0
  9
$WORLDVIEW
 70
     1
  9
$SHADEDGE
 70
     3
  9
$SHADEDIF
 70
    70
  9
$TILEMODE
 70
     1
  9
$MAXACTVP
 70
    64
  9
$PINSBASE
 10
0.0
 20
0.0
 30
0.0
  9
$PLIMCHECK
 70
     0
  9
$PEXTMIN
 10
1.0000000000E+20
 20
1.0000000000E+20
 30
1.0000000000E+20
  9
$PEXTMAX
 10
-1.0000000000E+20
 20
-1.0000000000E+20
 30
-1.0000000000E+20
  9
$PLIMMIN
 10
0.0
 20
0.0
  9
$PLIMMAX
 10
420.0
 20
297.0
  9
$UNITMODE
 70
     0
  9
$VISRETAIN
 70
     1
  9
$PLINEGEN
 70
     0
  9
$PSLTSCALE
 70
     1
  9
$TREEDEPTH
 70
  3020
  9
$CMLSTYLE
  2
Standard
  9
$CMLJUST
 70
     0
  9
$CMLSCALE
 40
20.0
  9
$PROXYGRAPHICS
 70
     1
  9
$MEASUREMENT
 70
     1
  9
$CELWEIGHT
370
    -1
  9
$ENDCAPS
280
     0
  9
$JOINSTYLE
280
     0
  9
$LWDISPLAY
290
     1
  9
$INSUNITS
 70
     4
  9
$HYPERLINKBASE
  1

  9
$STYLESHEET
  1

  9
$XEDIT
290
     1
  9
$CEPSNTYPE
380
     0
  9
$PSTYLEMODE
290
     1
  9
$FINGERPRINTGUID
  2
{78d905de-23a7-480b-8041-2ced970225d4}
  9
$VERSIONGUID
  2
{FAEB1C32-E019-11D5-929B-00C0DF256EC4}
  9
$EXTNAMES
290
     1
  9
$PSVPSCALE
 40
0.0
  9
$OLESTARTUP
290
     0
  0
ENDSEC
  0
SECTION
  2
CLASSES
  0
CLASS
  1
ACDBDICTIONARYWDFLT
  2
AcDbDictionaryWithDefault
  3
ObjectDBX Classes
 90
        0
280
     0
281
     0
  0
CLASS
  1
VISUALSTYLE
  2
AcDbVisualStyle
  3
ObjectDBX Classes
 90
     4095
280
     0
281
     0
  0
CLASS
  1
MATERIAL
  2
AcDbMaterial
  3
ObjectDBX Classes
 90
     1153
280
     0
281
     0
  0
CLASS
  1
SCALE
  2
AcDbScale
  3
ObjectDBX Classes
 90
     1153
280
     0
281
     0
  0
CLASS
  1
TABLESTYLE
  2
AcDbTableStyle
  3
ObjectDBX Classes
 90
     4095
280
     0
281
     0
  0
CLASS
  1
MLEADERSTYLE
  2
AcDbMLeaderStyle
  3
ACDB_MLEADERSTYLE_CLASS
 90
     4095
280
     0
281
     0
  0
CLASS
  1
SUN
  2
AcDbSun
  3
SCENEOE
 90
     1153
280
     0
281
     0
  0
CLASS
  1
ACDBPLACEHOLDER
  2
AcDbPlaceHolder
  3
ObjectDBX Classes
 90
        0
280
     0
281
     0
  0
CLASS
  1
LAYOUT
  2
AcDbLayout
  3
ObjectDBX Classes
 90
        0
280
     0
281
     0
  0
ENDSEC
  0
SECTION
  2
TABLES
  0
TABLE
  2
VPORT
  5
8
330
0
100
AcDbSymbolTable
 70
     1
  0
VPORT
  5
29
330
8
100
AcDbSymbolTableRecord
100
AcDbViewportTableRecord
  2
*Active
 70
     0
 10
0.0
 20
0.0
 11
1.0
 21
1.0
 12
139.7
 22
107.95
 13
0.0
 23
0.0
 14
10.0
 24
10.0
 15
10.0
 25
10.0
 16
0.0
 26
0.0
 36
1.0
 17
0.0
 27
0.0
 37
0.0
 40
215.9
 41
1.2941176471
 42
50.0
 43
0.0
 44
0.0
 50
0.0
 51
0.0
 71
     0
 72
  2000
 73
     1
 74
     3
 75
     0
 76
     0
 77
     0
 78
     0
281
     0
 65
     1
110
0.0
120
0.0
130
0.0
111
1.0
121
0.0
131
0.0
112
0.0
122
1.0
132
0.0
 79
     0
146
0.0
  0
ENDTAB
  0
TABLE
  2
LTYPE
  5
5
330
0
100
AcDbSymbolTable
 70
     6
  0
LTYPE
  5
14
330
5
100
AcDbSymbolTableRecord
100
AcDbLinetypeTableRecord
  2
ByBlock
 70
     0
  3

 72
    65
 73
     0
 40
0.0
  0
LTYPE
  5
15
330
5
100
AcDbSymbolTableRecord
100
AcDbLinetypeTableRecord
  2
ByLayer
 70
     0
  3

 72
    65
 73
     0
 40
0.0
  0
LTYPE
  5
16
330
5
100
AcDbSymbolTableRecord
100
AcDbLinetypeTableRecord
  2
Continuous
 70
     0
  3
Solid line
 72
    65
 73
     0
 40
0.0
  0
LTYPE
  5
6E
330
5
100
AcDbSymbolTableRecord
100
AcDbLinetypeTableRecord
  2
HIDDEN
 70
     0
  3
Hidden __ __ __ __ __ __ __ __ __ __ __ __ __ __
 72
    65
 73
     2
 40
1.905
 49
1.27
 74
     0
 49
-0.635
 74
     0
  0
LTYPE
  5
6F
330
5
100
AcDbSymbolTableRecord
100
AcDbLinetypeTableRecord
  2
PHANTOM
 70
     0
  3
Phantom ______  __  __  ______  __  __  ______
 72
    65
 73
     6
 40
12.7
 49
6.35
 74
     0
 49
-1.27
 74
     0
 49
1.27
 74
     0
 49
-1.27
 74
     0
 49
1.27
 74
     0
 49
-1.27
 74
     0
  0
LTYPE
  5
70
330
5
100
AcDbSymbolTableRecord
100
AcDbLinetypeTableRecord
  2
CENTER
 70
     0
  3
Center ____ _ ____ _ ____ _ ____ _ ____ _ ____
 72
    65
 73
     4
 40
10.16
 49
6.35
 74
     0
 49
-1.27
 74
     0
 49
1.27
 74
     0
 49
-1.27
 74
     0
  0
LTYPE
  5
71
330
5
100
AcDbSymbolTableRecord
100
AcDbLinetypeTableRecord
  2
CENTERX2
 70
     0
  3
Center (2x) ________  __  ________  __  _____
 72
    65
 73
     4
 40
20.32
 49
12.7
 74
     0
 49
-2.54
 74
     0
 49
2.54
 74
     0
 49
-2.54
 74
     0
  0
LTYPE
  5
72
330
5
100
AcDbSymbolTableRecord
100
AcDbLinetypeTableRecord
  2
DOT2
 70
     0
  3
Dot (.5x) ........................................
 72
    65
 73
     2
 40
0.635
 49
0.0
 74
     0
 49
-0.635
 74
     0
  0
ENDTAB
  0
TABLE
  2
LAYER
  5
2
330
0
100
AcDbSymbolTable
 70
    17
  0
LAYER
  5
10
330
2
100
AcDbSymbolTableRecord
100
AcDbLayerTableRecord
  2
0
 70
     0
 62
     7
  6
Continuous
370
    -3
390
F
  0
LAYER
  5
73
330
2
100
AcDbSymbolTableRecord
100
AcDbLayerTableRecord
  2
FORMAT
 70
     0
 62
     7
  6
Continuous
370
    -3
390
F
  0
LAYER
  5
74
330
2
100
AcDbSymbolTableRecord
100
AcDbLayerTableRecord
  2
YARDIMCI_GEOMETRI
 70
     0
 62
    -6
  6
Continuous
290
     0
370
    -3
390
F
  0
LAYER
  5
75
330
2
100
AcDbSymbolTableRecord
100
AcDbLayerTableRecord
  2
SAYFA_CERCEVESI
 70
     0
 62
     7
  6
Continuous
370
    25
390
F
  0
LAYER
  5
76
330
2
100
AcDbSymbolTableRecord
100
AcDbLayerTableRecord
  2
ANTET
 70
     0
 62
     7
  6
Continuous
370
    -3
390
F
  0
LAYER
  5
77
330
2
100
AcDbSymbolTableRecord
100
AcDbLayerTableRecord
  2
OLCU
 70
     0
 62
   150
  6
Continuous
370
    -3
390
F
  0
LAYER
  5
78
330
2
100
AcDbSymbolTableRecord
100
AcDbLayerTableRecord
  2
METIN
 70
     0
 62
    96
  6
Continuous
370
    -3
390
F
  0
LAYER
  5
79
330
2
100
AcDbSymbolTableRecord
100
AcDbLayerTableRecord
  2
BALON
 70
     0
 62
     5
  6
Continuous
370
    -3
390
F
  0
LAYER
  5
7A
330
2
100
AcDbSymbolTableRecord
100
AcDbLayerTableRecord
  2
VURGU
 70
     0
 62
     7
  6
Continuous
370
    -3
390
F
  0
LAYER
  5
7B
330
2
100
AcDbSymbolTableRecord
100
AcDbLayerTableRecord
  2
SILIK
 70
     0
 62
     7
  6
Continuous
370
    -3
390
F
  0
LAYER
  5
7C
330
2
100
AcDbSymbolTableRecord
100
AcDbLayerTableRecord
  2
MODEL
 70
     0
 62
     7
  6
Continuous
370
    -3
390
F
  0
LAYER
  5
7D
330
2
100
AcDbSymbolTableRecord
100
AcDbLayerTableRecord
  2
DETAYLANDıRMA
 70
     0
 62
   190
  6
Continuous
370
    -3
390
F
  0
LAYER
  5
7E
330
2
100
AcDbSymbolTableRecord
100
AcDbLayerTableRecord
  2
TOLERANS
 70
     0
 62
   230
  6
Continuous
370
    -3
390
F
  0
LAYER
  5
7F
330
2
100
AcDbSymbolTableRecord
100
AcDbLayerTableRecord
  2
MERKEZ_CIZGILERI
 70
     0
 62
    30
  6
Continuous
370
    -3
390
F
  0
LAYER
  5
80
330
2
100
AcDbSymbolTableRecord
100
AcDbLayerTableRecord
  2
KESIT-DETAY_CIZGILERI
 70
     0
 62
     7
  6
Continuous
370
    -3
390
F
  0
LAYER
  5
81
330
2
100
AcDbSymbolTableRecord
100
AcDbLayerTableRecord
  2
\U+041E\U+0421\U+0415\U+0412\U+042B\U+0415
 70
     0
 62
     7
  6
Continuous
370
    -3
390
F
  0
LAYER
  5
82
330
2
100
AcDbSymbolTableRecord
100
AcDbLayerTableRecord
  2
\U+0412\U+041E\U+0414\U+042F\U+041D\U+042B\U+0415_\U+0417\U+041D\U+0410\U+041A\U+0418
 70
     0
 62
    11
  6
Continuous
370
    -3
390
F
  0
ENDTAB
  0
TABLE
  2
STYLE
  5
3
330
0
100
AcDbSymbolTable
 70
     1
  0
STYLE
  5
11
330
3
100
AcDbSymbolTableRecord
100
AcDbTextStyleTableRecord
  2
Standard
 70
     0
 40
0.0
 41
1.0
 50
0.0
 71
     0
 42
3.5
  3
txt
  4

  0
ENDTAB
  0
TABLE
  2
VIEW
  5
6
330
0
100
AcDbSymbolTable
 70
     0
  0
ENDTAB
  0
TABLE
  2
UCS
  5
7
330
0
100
AcDbSymbolTable
 70
     0
  0
ENDTAB
  0
TABLE
  2
APPID
  5
9
330
0
100
AcDbSymbolTable
 70
     1
  0
APPID
  5
12
330
9
100
AcDbSymbolTableRecord
100
AcDbRegAppTableRecord
  2
ACAD
 70
     0
  0
ENDTAB
  0
TABLE
  2
DIMSTYLE
  5
A
330
0
100
AcDbSymbolTable
 70
     1
100
AcDbDimStyleTable
  0
DIMSTYLE
105
27
330
A
100
AcDbSymbolTableRecord
100
AcDbDimStyleTableRecord
  2
ISO-25
 70
     0
 41
2.5
 42
0.625
 43
3.75
 44
1.25
 73
     0
 74
     0
 77
     1
 78
     8
140
2.5
141
2.5
143
0.0393700787
147
0.625
171
     3
172
     1
178
     0
271
     2
272
     2
274
     3
278
    44
283
     0
284
     8
340
11
  0
ENDTAB
  0
TABLE
  2
BLOCK_RECORD
  5
1
330
0
100
AcDbSymbolTable
 70
     1
  0
BLOCK_RECORD
  5
1F
330
1
100
AcDbSymbolTableRecord
100
AcDbBlockTableRecord
  2
*Model_Space
340
22
  0
BLOCK_RECORD
  5
1B
330
1
100
AcDbSymbolTableRecord
100
AcDbBlockTableRecord
  2
*Paper_Space
340
1E
  0
BLOCK_RECORD
  5
23
330
1
100
AcDbSymbolTableRecord
100
AcDbBlockTableRecord
  2
*Paper_Space0
340
26
  0
ENDTAB
  0
ENDSEC
  0
SECTION
  2
BLOCKS
  0
BLOCK
  5
20
330
1F
100
AcDbEntity
  8
0
100
AcDbBlockBegin
  2
*Model_Space
 70
     0
 10
0.0
 20
0.0
 30
0.0
  3
*Model_Space
  1

  0
ENDBLK
  5
21
330
1F
100
AcDbEntity
  8
0
100
AcDbBlockEnd
  0
BLOCK
  5
1C
330
1B
100
AcDbEntity
 67
     1
  8
0
100
AcDbBlockBegin
  2
*Paper_Space
 70
     0
 10
0.0
 20
0.0
 30
0.0
  3
*Paper_Space
  1

  0
ENDBLK
  5
1D
330
1B
100
AcDbEntity
 67
     1
  8
0
100
AcDbBlockEnd
  0
BLOCK
  5
24
330
23
100
AcDbEntity
  8
0
100
AcDbBlockBegin
  2
*Paper_Space0
 70
     0
 10
0.0
 20
0.0
 30
0.0
  3
*Paper_Space0
  1

  0
ENDBLK
  5
25
330
23
100
AcDbEntity
  8
0
100
AcDbBlockEnd
  0
ENDSEC
  0
SECTION
  2
ENTITIES
  0
CIRCLE
  5
83
330
1F
100
AcDbEntity
  8
0
  6
Continuous
 62
     7
370
    25
100
AcDbCircle
 10
138.1032233409
 20
99.2933865669
 30
0.0
 40
200.0
  0
CIRCLE
  5
84
330
1F
100
AcDbEntity
  8
0
  6
Continuous
 62
     7
370
    25
100
AcDbCircle
 10
138.1032233409
 20
99.2933865669
 30
0.0
 40
176.3
  0
CIRCLE
  5
85
330
1F
100
AcDbEntity
  8
0
  6
Continuous
 62
     7
370
    25
100
AcDbCircle
 10
138.1032233409
 20
99.2933865669
 30
0.0
 40
215.0
  0
CIRCLE
  5
86
330
1F
100
AcDbEntity
  8
0
  6
Continuous
 62
     7
370
    25
100
AcDbCircle
 10
138.1032233409
 20
99.2933865669
 30
0.0
 40
242.5
  0
LINE
  5
87
330
1F
100
AcDbEntity
  8
0
  6
Continuous
 62
     7
370
    25
100
AcDbLine
 10
380.6032233409
 20
498.1354765197
 30
0.0
 11
380.6032233409
 21
531.1354765197
 31
0.0
  0
LINE
  5
88
330
1F
100
AcDbEntity
  8
0
  6
Continuous
 62
     7
370
    25
100
AcDbLine
 10
-104.3967766591
 20
531.1354765197
 30
0.0
 11
-104.3967766591
 21
498.1354765197
 31
0.0
  0
LINE
  5
89
330
1F
100
AcDbEntity
  8
0
  6
Continuous
 62
     7
370
    25
100
AcDbLine
 10
353.1032233409
 20
531.1354765197
 30
0.0
 11
338.1032233409
 21
566.1354765197
 31
0.0
  0
LINE
  5
8A
330
1F
100
AcDbEntity
  8
0
  6
Continuous
 62
     7
370
    25
100
AcDbLine
 10
-61.8967766591
 20
566.1354765197
 30
0.0
 11
-76.8967766591
 21
531.1354765197
 31
0.0
  0
LINE
  5
8B
330
1F
100
AcDbEntity
  8
0
  6
Continuous
 62
     7
370
    25
100
AcDbLine
 10
338.1032233409
 20
566.1354765197
 30
0.0
 11
338.1032233409
 21
618.1354765197
 31
0.0
  0
LINE
  5
8C
330
1F
100
AcDbEntity
  8
0
  6
Continuous
 62
     7
370
    25
100
AcDbLine
 10
-61.8967766591
 20
618.1354765197
 30
0.0
 11
-61.8967766591
 21
566.1354765197
 31
0.0
  0
LINE
  5
8D
330
1F
100
AcDbEntity
  8
0
  6
Continuous
 62
     7
370
    25
100
AcDbLine
 10
380.6032233409
 20
498.1354765197
 30
0.0
 11
-104.3967766591
 21
498.1354765197
 31
0.0
  0
LINE
  5
8E
330
1F
100
AcDbEntity
  8
0
  6
Continuous
 62
     7
370
    25
100
AcDbLine
 10
380.6032233409
 20
531.1354765197
 30
0.0
 11
-104.3967766591
 21
531.1354765197
 31
0.0
  0
LINE
  5
8F
330
1F
100
AcDbEntity
  8
0
  6
Continuous
 62
     7
370
    25
100
AcDbLine
 10
338.1032233409
 20
566.1354765197
 30
0.0
 11
-61.8967766591
 21
566.1354765197
 31
0.0
  0
LINE
  5
90
330
1F
100
AcDbEntity
  8
0
  6
Continuous
 62
     7
370
    25
100
AcDbLine
 10
338.1032233409
 20
618.1354765197
 30
0.0
 11
-61.8967766591
 21
618.1354765197
 31
0.0
  0
LINE
  5
91
330
1F
100
AcDbEntity
  8
0
  6
Continuous
 62
     7
370
    25
100
AcDbLine
 10
-353.8904413767
 20
341.7933865669
 30
0.0
 11
-386.8904413767
 21
341.7933865669
 31
0.0
  0
LINE
  5
92
330
1F
100
AcDbEntity
  8
0
  6
Continuous
 62
     7
370
    25
100
AcDbLine
 10
-386.8904413767
 20
-143.2066134331
 30
0.0
 11
-353.8904413767
 21
-143.2066134331
 31
0.0
  0
LINE
  5
93
330
1F
100
AcDbEntity
  8
0
  6
Continuous
 62
     7
370
    25
100
AcDbLine
 10
-386.8904413767
 20
314.2933865669
 30
0.0
 11
-421.8904413767
 21
299.2933865669
 31
0.0
  0
LINE
  5
94
330
1F
100
AcDbEntity
  8
0
  6
Continuous
 62
     7
370
    25
100
AcDbLine
 10
-421.8904413767
 20
-100.7066134331
 30
0.0
 11
-386.8904413767
 21
-115.7066134331
 31
0.0
  0
LINE
  5
95
330
1F
100
AcDbEntity
  8
0
  6
Continuous
 62
     7
370
    25
100
AcDbLine
 10
-421.8904413767
 20
299.2933865669
 30
0.0
 11
-473.8904413767
 21
299.2933865669
 31
0.0
  0
LINE
  5
96
330
1F
100
AcDbEntity
  8
0
  6
Continuous
 62
     7
370
    25
100
AcDbLine
 10
-473.8904413767
 20
-100.7066134331
 30
0.0
 11
-421.8904413767
 21
-100.7066134331
 31
0.0
  0
LINE
  5
97
330
1F
100
AcDbEntity
  8
0
  6
Continuous
 62
     7
370
    25
100
AcDbLine
 10
-353.8904413767
 20
341.7933865669
 30
0.0
 11
-353.8904413767
 21
-143.2066134331
 31
0.0
  0
LINE
  5
98
330
1F
100
AcDbEntity
  8
0
  6
Continuous
 62
     7
370
    25
100
AcDbLine
 10
-386.8904413767
 20
341.7933865669
 30
0.0
 11
-386.8904413767
 21
-143.2066134331
 31
0.0
  0
LINE
  5
99
330
1F
100
AcDbEntity
  8
0
  6
Continuous
 62
     7
370
    25
100
AcDbLine
 10
-421.8904413767
 20
299.2933865669
 30
0.0
 11
-421.8904413767
 21
-100.7066134331
 31
0.0
  0
LINE
  5
9A
330
1F
100
AcDbEntity
  8
0
  6
Continuous
 62
     7
370
    25
100
AcDbLine
 10
-473.8904413767
 20
299.2933865669
 30
0.0
 11
-473.8904413767
 21
-100.7066134331
 31
0.0
  0
LINE
  5
9B
330
1F
100
AcDbEntity
  8
0
  6
Continuous
 62
     7
370
    25
100
AcDbLine
 10
-104.3967766591
 20
-435.1168046018
 30
0.0
 11
-104.3967766591
 21
-468.1168046018
 31
0.0
  0
LINE
  5
9C
330
1F
100
AcDbEntity
  8
0
  6
Continuous
 62
     7
370
    25
100
AcDbLine
 10
380.6032233409
 20
-468.1168046018
 30
0.0
 11
380.6032233409
 21
-435.1168046018
 31
0.0
  0
LINE
  5
9D
330
1F
100
AcDbEntity
  8
0
  6
Continuous
 62
     7
370
    25
100
AcDbLine
 10
-76.8967766591
 20
-468.1168046018
 30
0.0
 11
-61.8967766591
 21
-503.1168046018
 31
0.0
  0
LINE
  5
9E
330
1F
100
AcDbEntity
  8
0
  6
Continuous
 62
     7
370
    25
100
AcDbLine
 10
338.1032233409
 20
-503.1168046018
 30
0.0
 11
353.1032233409
 21
-468.1168046018
 31
0.0
  0
LINE
  5
9F
330
1F
100
AcDbEntity
  8
0
  6
Continuous
 62
     7
370
    25
100
AcDbLine
 10
-61.8967766591
 20
-503.1168046018
 30
0.0
 11
-61.8967766591
 21
-555.1168046018
 31
0.0
  0
LINE
  5
A0
330
1F
100
AcDbEntity
  8
0
  6
Continuous
 62
     7
370
    25
100
AcDbLine
 10
338.1032233409
 20
-555.1168046018
 30
0.0
 11
338.1032233409
 21
-503.1168046018
 31
0.0
  0
LINE
  5
A1
330
1F
100
AcDbEntity
  8
0
  6
Continuous
 62
     7
370
    25
100
AcDbLine
 10
-104.3967766591
 20
-435.1168046018
 30
0.0
 11
380.6032233409
 21
-435.1168046018
 31
0.0
  0
LINE
  5
A2
330
1F
100
AcDbEntity
  8
0
  6
Continuous
 62
     7
370
    25
100
AcDbLine
 10
-104.3967766591
 20
-468.1168046018
 30
0.0
 11
380.6032233409
 21
-468.1168046018
 31
0.0
  0
LINE
  5
A3
330
1F
100
AcDbEntity
  8
0
  6
Continuous
 62
     7
370
    25
100
AcDbLine
 10
-61.8967766591
 20
-503.1168046018
 30
0.0
 11
338.1032233409
 21
-503.1168046018
 31
0.0
  0
LINE
  5
A4
330
1F
100
AcDbEntity
  8
0
  6
Continuous
 62
     7
370
    25
100
AcDbLine
 10
-61.8967766591
 20
-555.1168046018
 30
0.0
 11
338.1032233409
 21
-555.1168046018
 31
0.0
  0
LINE
  5
A5
330
1F
100
AcDbEntity
  8
0
  6
Continuous
 62
     7
370
    25
100
AcDbLine
 10
684.5142281038
 20
-143.2066134331
 30
0.0
 11
717.5142281038
 21
-143.2066134331
 31
0.0
  0
LINE
  5
A6
330
1F
100
AcDbEntity
  8
0
  6
Continuous
 62
     7
370
    25
100
AcDbLine
 10
717.5142281038
 20
341.7933865669
 30
0.0
 11
684.5142281038
 21
341.7933865669
 31
0.0
  0
LINE
  5
A7
330
1F
100
AcDbEntity
  8
0
  6
Continuous
 62
     7
370
    25
100
AcDbLine
 10
717.5142281038
 20
-115.7066134331
 30
0.0
 11
752.5142281038
 21
-100.7066134331
 31
0.0
  0
LINE
  5
A8
330
1F
100
AcDbEntity
  8
0
  6
Continuous
 62
     7
370
    25
100
AcDbLine
 10
752.5142281038
 20
299.2933865669
 30
0.0
 11
717.5142281038
 21
314.2933865669
 31
0.0
  0
LINE
  5
A9
330
1F
100
AcDbEntity
  8
0
  6
Continuous
 62
     7
370
    25
100
AcDbLine
 10
752.5142281038
 20
-100.7066134331
 30
0.0
 11
804.5142281038
 21
-100.7066134331
 31
0.0
  0
LINE
  5
AA
330
1F
100
AcDbEntity
  8
0
  6
Continuous
 62
     7
370
    25
100
AcDbLine
 10
804.5142281038
 20
299.2933865669
 30
0.0
 11
752.5142281038
 21
299.2933865669
 31
0.0
  0
LINE
  5
AB
330
1F
100
AcDbEntity
  8
0
  6
Continuous
 62
     7
370
    25
100
AcDbLine
 10
684.5142281038
 20
99.2933865669
 30
0.0
 11
684.5142281038
 21
341.7933865669
 31
0.0
  0
LINE
  5
AC
330
1F
100
AcDbEntity
  8
0
  6
Continuous
 62
     7
370
    25
100
AcDbLine
 10
684.5142281038
 20
-143.2066134331
 30
0.0
 11
684.5142281038
 21
99.2933865669
 31
0.0
  0
LINE
  5
AD
330
1F
100
AcDbEntity
  8
0
  6
Continuous
 62
     7
370
    25
100
AcDbLine
 10
717.5142281038
 20
99.2933865669
 30
0.0
 11
717.5142281038
 21
341.7933865669
 31
0.0
  0
LINE
  5
AE
330
1F
100
AcDbEntity
  8
0
  6
Continuous
 62
     7
370
    25
100
AcDbLine
 10
717.5142281038
 20
-143.2066134331
 30
0.0
 11
717.5142281038
 21
99.2933865669
 31
0.0
  0
LINE
  5
AF
330
1F
100
AcDbEntity
  8
0
  6
Continuous
 62
     7
370
    25
100
AcDbLine
 10
752.5142281038
 20
99.2933865669
 30
0.0
 11
752.5142281038
 21
299.2933865669
 31
0.0
  0
LINE
  5
B0
330
1F
100
AcDbEntity
  8
0
  6
Continuous
 62
     7
370
    25
100
AcDbLine
 10
752.5142281038
 20
-100.7066134331
 30
0.0
 11
752.5142281038
 21
99.2933865669
 31
0.0
  0
LINE
  5
B1
330
1F
100
AcDbEntity
  8
0
  6
Continuous
 62
     7
370
    25
100
AcDbLine
 10
804.5142281038
 20
99.2933865669
 30
0.0
 11
804.5142281038
 21
299.2933865669
 31
0.0
  0
LINE
  5
B2
330
1F
100
AcDbEntity
  8
0
  6
Continuous
 62
     7
370
    25
100
AcDbLine
 10
804.5142281038
 20
-100.7066134331
 30
0.0
 11
804.5142281038
 21
99.2933865669
 31
0.0
  0
LINE
  5
B3
330
1F
100
AcDbEntity
  8
0
  6
Continuous
 62
     7
370
    25
100
AcDbLine
 10
806.2208281082
 20
-309.6012962444
 30
0.0
 11
769.4512754865
 21
-288.374685337
 31
0.0
  0
LINE
  5
B4
330
1F
100
AcDbEntity
  8
0
  6
Continuous
 62
     7
370
    25
100
AcDbLine
 10
569.4675289593
 20
-634.7942302892
 30
0.0
 11
606.237081581
 21
-656.0208411966
 31
0.0
  0
LINE
  5
B5
330
1F
100
AcDbEntity
  8
0
  6
Continuous
 62
     7
370
    25
100
AcDbLine
 10
875.5523622974
 20
-300.5520953952
 30
0.0
 11
852.2178385183
 21
-287.0813615501
 31
0.0
  0
LINE
  5
B6
330
1F
100
AcDbEntity
  8
0
  6
Continuous
 62
     7
370
    25
100
AcDbLine
 10
609.737545854
 20
-707.1150598047
 30
0.0
 11
633.0720696332
 21
-720.5857936498
 31
0.0
  0
LINE
  5
B7
330
1F
100
AcDbEntity
  8
0
  6
Continuous
 62
     7
370
    25
100
AcDbLine
 10
800.8307311431
 20
-300.8454545775
 30
0.0
 11
790.7011170871
 21
-300.6419577767
 31
0.0
  0
LINE
  5
B8
330
1F
100
AcDbEntity
  8
0
  6
Continuous
 62
     7
370
    25
100
AcDbLine
 10
590.7173705599
 20
-647.061502729
 30
0.0
 11
595.9592246118
 21
-655.7317655837
 31
0.0
  0
LWPOLYLINE
  5
B9
330
1F
100
AcDbEntity
  8
0
  6
Continuous
 62
     7
370
    25
100
AcDbPolyline
 90
      151
 70
   128
 43
0.0
 10
528.0380459856
 20
-543.2252689954
 10
528.1620965427
 20
-536.3150200742
 10
528.5340305871
 20
-529.2736683533
 10
529.1531956201
 20
-522.1135667561
 10
530.0185054158
 20
-514.8472765339
 10
531.1284419269
 20
-507.4875452288
 10
532.4810579475
 20
-500.0472843105
 10
534.0739805295
 20
-492.5395465247
 10
535.9044151455
 20
-484.9775029946
 10
537.9691505911
 20
-477.3744201144
 10
540.2645646187
 20
-469.7436362748
 10
542.7866302922
 20
-462.0985384636
 10
545.5309230513
 20
-454.4525387803
 10
548.4926284741
 20
-446.8190509065
 10
551.6665507228
 20
-439.2114665736
 10
555.0471216594
 20
-431.6431320698
 10
558.6284106136
 20
-424.1273248255
 10
562.4041347877
 20
-416.6772301205
 10
566.3676702785
 20
-409.3059179524
 10
570.512063698
 20
-402.0263201076
 10
574.8300443718
 20
-394.8512074743
 10
579.3140370945
 20
-387.7931676383
 10
583.9561754192
 20
-380.8645827996
 10
588.748315458
 20
-374.0776080505
 10
593.6820501687
 20
-367.4441500509
 10
598.7487241043
 20
-360.9758461403
 10
603.9394485969
 20
-354.6840439215
 10
609.245117352
 20
-348.5797813537
 10
614.6564224238
 20
-342.6737673877
 10
620.1638705443
 20
-336.9763631788
 10
625.7577997781
 20
-331.49756391
 10
631.4283964724
 20
-326.2469812569
 10
637.1657124739
 20
-321.2338265257
 10
642.9596825807
 20
-316.4668944933
 10
648.8001422004
 20
-311.9545479782
 10
654.6768451822
 20
-307.7047031695
 10
660.5794817923
 20
-303.7248157391
 10
666.4976968001
 20
-300.0218677621
 10
672.4211076457
 20
-296.6023554673
 10
678.3393226536
 20
-293.4722778413
 10
684.2419592636
 20
-290.6371261039
 10
690.1186622455
 20
-288.1018740746
 10
695.9591218652
 20
-285.8709694469
 10
701.753091972
 20
-283.9483259857
 10
707.4904079734
 20
-282.3373166609
 10
713.1610046678
 20
-281.0407677302
 10
718.7549339016
 20
-280.0609537812
 10
724.2623820221
 20
-279.3995937403
 10
729.6736870938
 20
-279.0578478578
 10
734.979355849
 20
-279.0363156721
 10
740.1700803416
 20
-279.335034958
 10
745.2367542772
 20
-279.9534816604
 10
750.1704889879
 20
-280.8905708135
 10
754.9626290266
 20
-282.1446584447
 10
759.6047673514
 20
-283.713544458
 10
764.0887600741
 20
-285.5944764943
 10
768.4067407479
 20
-287.7841547596
 10
772.5511341673
 20
-290.2787378142
 10
776.5146696581
 20
-293.0738493117
 10
780.2903938323
 20
-296.1645856769
 10
783.8716827865
 20
-299.5455247078
 10
787.252253723
 20
-303.2107350886
 10
790.4261759718
 20
-307.1537867948
 10
793.3878813946
 20
-311.3677623739
 10
796.1321741537
 20
-315.8452690807
 10
798.6542398272
 20
-320.5784518471
 10
800.9496538548
 20
-325.5590070621
 10
803.0143893004
 20
-330.7781971395
 10
804.8448239163
 20
-336.2268658464
 10
806.4377464984
 20
-341.8954543664
 10
807.790362519
 20
-347.774018069
 10
808.9002990301
 20
-353.852243956
 10
809.7656088258
 20
-360.1194687538
 10
810.3847738588
 20
-366.5646976204
 10
810.7567079032
 20
-373.1766234342
 10
810.8807584602
 20
-379.9436466308
 10
810.7567079032
 20
-386.853895552
 10
810.3847738588
 20
-393.8952472729
 10
809.7656088258
 20
-401.0553488701
 10
808.9002990301
 20
-408.3216390923
 10
807.790362519
 20
-415.6813703974
 10
806.4377464984
 20
-423.1216313157
 10
804.8448239163
 20
-430.6293691015
 10
803.0143893004
 20
-438.1914126316
 10
800.9496538548
 20
-445.7944955118
 10
798.6542398272
 20
-453.4252793514
 10
796.1321741537
 20
-461.0703771626
 10
793.3878813946
 20
-468.7163768459
 10
790.4261759718
 20
-476.3498647197
 10
787.252253723
 20
-483.9574490526
 10
783.8716827865
 20
-491.5257835564
 10
780.2903938323
 20
-499.0415908007
 10
776.5146696581
 20
-506.4916855057
 10
772.5511341673
 20
-513.8629976738
 10
768.4067407479
 20
-521.1425955186
 10
764.0887600741
 20
-528.3177081519
 10
759.6047673514
 20
-535.375747988
 10
754.9626290266
 20
-542.3043328266
 10
750.1704889879
 20
-549.0913075757
 10
745.2367542772
 20
-555.7247655753
 10
740.1700803416
 20
-562.1930694859
 10
734.979355849
 20
-568.4848717047
 10
729.6736870938
 20
-574.5891342725
 10
724.2623820221
 20
-580.4951482385
 10
718.7549339016
 20
-586.1925524474
 10
713.1610046678
 20
-591.6713517162
 10
707.4904079734
 20
-596.9219343693
 10
701.753091972
 20
-601.9350891005
 10
695.9591218652
 20
-606.7020211329
 10
690.1186622455
 20
-611.214367648
 10
684.2419592636
 20
-615.4642124567
 10
678.3393226536
 20
-619.4440998871
 10
672.4211076457
 20
-623.1470478642
 10
666.4976968001
 20
-626.5665601589
 10
660.5794817923
 20
-629.6966377849
 10
654.6768451822
 20
-632.5317895223
 10
648.8001422004
 20
-635.0670415516
 10
642.9596825807
 20
-637.2979461793
 10
637.1657124739
 20
-639.2205896405
 10
631.4283964724
 20
-640.8315989653
 10
625.7577997781
 20
-642.128147896
 10
620.1638705443
 20
-643.107961845
 10
614.6564224238
 20
-643.769321886
 10
609.245117352
 20
-644.1110677684
 10
603.9394485969
 20
-644.1325999541
 10
598.7487241043
 20
-643.8338806682
 10
593.6820501687
 20
-643.2154339658
 10
588.748315458
 20
-642.2783448127
 10
583.9561754192
 20
-641.0242571815
 10
579.3140370945
 20
-639.4553711682
 10
574.8300443718
 20
-637.5744391319
 10
570.512063698
 20
-635.3847608666
 10
566.3676702785
 20
-632.890177812
 10
562.4041347877
 20
-630.0950663145
 10
558.6284106136
 20
-627.0043299493
 10
555.0471216594
 20
-623.6233909184
 10
551.6665507228
 20
-619.9581805376
 10
548.4926284741
 20
-616.0151288314
 10
545.5309230513
 20
-611.8011532523
 10
542.7866302922
 20
-607.3236465455
 10
540.2645646187
 20
-602.5904637791
 10
537.9691505911
 20
-597.6099085641
 10
535.9044151455
 20
-592.3907184867
 10
534.0739805295
 20
-586.9420497798
 10
532.4810579475
 20
-581.2734612598
 10
531.1284419269
 20
-575.3948975572
 10
530.0185054158
 20
-569.3166716702
 10
529.1531956201
 20
-563.0494468724
 10
528.5340305871
 20
-556.6042180059
 10
528.1620965427
 20
-549.992292192
 10
528.0380459856
 20
-543.2252689954
  0
LWPOLYLINE
  5
BA
330
1F
100
AcDbEntity
  8
0
  6
Continuous
 62
     7
370
    25
100
AcDbPolyline
 90
      142
 70
   128
 43
0.0
 10
544.7964766997
 20
-533.5508328703
 10
544.9202300494
 20
-527.0665985682
 10
545.2912443975
 20
-520.452355537
 10
545.9087831294
 20
-513.7212357439
 10
546.7716201791
 20
-506.8866032043
 10
547.8780424636
 20
-499.9620274483
 10
549.2258532837
 20
-492.9612565802
 10
550.8123766859
 20
-485.8981899826
 10
552.6344627749
 20
-478.7868507203
 10
554.6884939673
 20
-471.6413576992
 10
556.9703921743
 20
-464.4758976344
 10
559.4756268983
 20
-457.3046968833
 10
562.1992242276
 20
-450.1419932015
 10
565.1357767118
 20
-443.002007474
 10
568.2794540979
 20
-435.8989154816
 10
571.6240149053
 20
-428.8468197559
 10
575.1628188181
 20
-421.8597215802
 10
578.8888398688
 20
-414.9514931912
 10
582.7946803874
 20
-408.1358502369
 10
586.8725856892
 20
-401.4263245455
 10
591.1144594706
 20
-394.8362372592
 10
595.5118798839
 20
-388.3786723864
 10
600.0561162578
 20
-382.0664508242
 10
604.7381464318
 20
-375.9121049044
 10
609.5486746683
 20
-369.9278535111
 10
614.4781501087
 20
-364.1255778214
 10
619.5167857359
 20
-358.5167977168
 10
624.6545778052
 20
-353.1126489109
 10
629.8813257061
 20
-347.9238608409
 10
635.1866522144
 20
-342.9607353653
 10
640.5600240954
 20
-338.2331263103
 10
645.9907730166
 20
-333.7504199061
 10
651.4681167287
 20
-329.5215161512
 10
656.9811804728
 20
-325.5548111427
 10
662.5190185712
 20
-321.8581804061
 10
668.0706361589
 20
-318.4389632597
 10
673.625011013
 20
-315.3039482425
 10
679.1711154365
 20
-312.4593596367
 10
684.6979381523
 20
-309.9108451096
 10
690.1945061657
 20
-307.663464501
 10
695.6499065494
 20
-305.721679777
 10
701.0533081112
 20
-304.0893461715
 10
706.3939828972
 20
-302.7697045316
 10
711.6613274922
 20
-301.7653748839
 10
716.8448840709
 20
-301.0783512317
 10
721.9343611617
 20
-300.709997597
 10
726.9196540787
 20
-300.6610453118
 10
731.7908649845
 20
-300.9315915663
 10
736.5383225407
 20
-301.5210992161
 10
741.1526011097
 20
-302.4283978481
 10
745.6245394685
 20
-303.6516861051
 10
749.9452589975
 20
-305.1885352613
 10
754.106181308
 20
-307.035894045
 10
758.0990452739
 20
-309.1900946964
 10
761.9159234334
 20
-311.6468602495
 10
765.5492377283
 20
-314.4013130237
 10
768.9917745492
 20
-317.4479843079
 10
772.236699058
 20
-320.7808252184
 10
775.2775687575
 20
-324.393218708
 10
778.1083462824
 20
-328.2779927038
 10
780.7234113858
 20
-332.4274343466
 10
783.1175720981
 20
-336.8333053042
 10
785.2860750348
 20
-341.4868581276
 10
787.2246148341
 20
-346.3788536183
 10
788.9293427046
 20
-351.4995791723
 10
790.396874067
 20
-356.8388680629
 10
791.6242952735
 20
-362.3861196262
 10
792.609169393
 20
-368.1303203078
 10
793.349541049
 20
-374.0600655288
 10
793.8439403022
 20
-380.1635823291
 10
794.0913855687
 20
-386.428752741
 10
794.0913855687
 20
-392.8431378485
 10
793.8439403022
 20
-399.3940024839
 10
793.349541049
 20
-406.0683405117
 10
792.609169393
 20
-412.8529006515
 10
791.6242952735
 20
-419.7342127873
 10
790.396874067
 20
-426.6986147108
 10
788.9293427046
 20
-433.7322792465
 10
787.2246148341
 20
-440.8212417047
 10
785.2860750348
 20
-447.9514276065
 10
783.1175720981
 20
-455.1086806279
 10
780.7234113858
 20
-462.2787907055
 10
778.1083462824
 20
-469.4475222493
 10
775.2775687575
 20
-476.6006424066
 10
772.236699058
 20
-483.7239493193
 10
768.9917745492
 20
-490.8033003209
 10
765.5492377283
 20
-497.8246400154
 10
761.9159234334
 20
-504.7740281827
 10
758.0990452739
 20
-511.6376674558
 10
754.106181308
 20
-518.4019307143
 10
749.9452589975
 20
-525.0533881396
 10
745.6245394685
 20
-531.5788338788
 10
741.1526011097
 20
-537.9653122632
 10
736.5383225407
 20
-544.2001435313
 10
731.7908649845
 20
-550.2709490027
 10
726.9196540787
 20
-556.165675655
 10
721.9343611617
 20
-561.8726200542
 10
716.8448840709
 20
-567.3804515903
 10
711.6613274922
 20
-572.6782349738
 10
706.3939828972
 20
-577.755451946
 10
701.0533081112
 20
-582.6020221626
 10
695.6499065494
 20
-587.2083232072
 10
690.1945061657
 20
-591.5652096953
 10
684.6979381523
 20
-595.6640314322
 10
679.1711154365
 20
-599.4966505866
 10
673.625011013
 20
-603.055457848
 10
668.0706361589
 20
-606.333387534
 10
662.5190185712
 20
-609.3239316187
 10
656.9811804728
 20
-612.0211526536
 10
651.4681167287
 20
-614.4196955559
 10
645.9907730166
 20
-616.5147982408
 10
640.5600240954
 20
-618.3023010758
 10
635.1866522144
 20
-619.7786551395
 10
629.8813257061
 20
-620.9409292676
 10
624.6545778052
 20
-621.7868158723
 10
619.5167857359
 20
-622.3146355241
 10
614.4781501087
 20
-622.523340286
 10
609.5486746683
 20
-622.412515794
 10
604.7381464318
 20
-621.9823820797
 10
600.0561162578
 20
-621.233793134
 10
595.5118798839
 20
-620.1682352109
 10
591.1144594706
 20
-618.7878238769
 10
586.8725856892
 20
-617.095299811
 10
582.7946803874
 20
-615.0940233632
 10
578.8888398688
 20
-612.7879678824
 10
575.1628188181
 20
-610.1817118285
 10
571.6240149053
 20
-607.2804296815
 10
568.2794540979
 20
-604.0898816687
 10
565.1357767118
 20
-600.6164023277
 10
562.1992242276
 20
-596.8668879303
 10
559.4756268983
 20
-592.8487827903
 10
556.9703921743
 20
-588.5700644834
 10
554.6884939673
 20
-584.0392280088
 10
552.6344627749
 20
-579.2652689229
 10
550.8123766859
 20
-574.2576654796
 10
549.2258532837
 20
-569.026359812
 10
547.8780424636
 20
-563.5817381934
 10
546.7716201791
 20
-557.9346104158
 10
545.9087831294
 20
-552.0961883288
 10
545.2912443975
 20
-546.0780635791
 10
544.9202300494
 20
-539.8921845962
 10
544.7964766997
 20
-533.5508328703
  0
LWPOLYLINE
  5
BB
330
1F
100
AcDbEntity
  8
0
  6
Continuous
 62
     7
370
    25
100
AcDbPolyline
 90
       77
 70
   128
 43
0.0
 10
806.2208281082
 20
-309.6012962444
 10
809.320686789
 20
-311.5053487216
 10
813.2842222798
 20
-314.3004602191
 10
817.059946454
 20
-317.3911965843
 10
820.6412354082
 20
-320.7721356152
 10
824.0218063447
 20
-324.437345996
 10
827.1957285935
 20
-328.3803977022
 10
830.1574340163
 20
-332.5943732813
 10
832.9017267754
 20
-337.0718799881
 10
835.4237924489
 20
-341.8050627545
 10
837.7192064765
 20
-346.7856179695
 10
839.7839419221
 20
-352.0048080469
 10
841.614376538
 20
-357.4534767538
 10
843.2072991201
 20
-363.1220652738
 10
844.5599151407
 20
-369.0006289764
 10
845.6698516518
 20
-375.0788548634
 10
846.5351614475
 20
-381.3460796612
 10
847.1543264805
 20
-387.7913085277
 10
847.5262605249
 20
-394.4032343416
 10
847.6503110819
 20
-401.1702575382
 10
847.5262605249
 20
-408.0805064594
 10
847.1543264805
 20
-415.1218581803
 10
846.5351614475
 20
-422.2819597775
 10
845.6698516518
 20
-429.5482499997
 10
844.5599151407
 20
-436.9079813048
 10
843.2072991201
 20
-444.3482422231
 10
841.614376538
 20
-451.8559800089
 10
839.7839419221
 20
-459.418023539
 10
837.7192064765
 20
-467.0211064192
 10
835.4237924489
 20
-474.6518902588
 10
832.9017267754
 20
-482.29698807
 10
830.1574340163
 20
-489.9429877533
 10
827.1957285935
 20
-497.5764756271
 10
824.0218063447
 20
-505.18405996
 10
820.6412354082
 20
-512.7523944638
 10
817.059946454
 20
-520.2682017081
 10
813.2842222798
 20
-527.7182964131
 10
809.320686789
 20
-535.0896085812
 10
805.1762933696
 20
-542.369206426
 10
800.8583126958
 20
-549.5443190593
 10
796.3743199731
 20
-556.6023588953
 10
791.7321816483
 20
-563.530943734
 10
786.9400416096
 20
-570.3179184831
 10
782.0063068989
 20
-576.9513764827
 10
776.9396329633
 20
-583.4196803933
 10
771.7489084707
 20
-589.7114826121
 10
766.4432397155
 20
-595.8157451799
 10
761.0319346438
 20
-601.7217591459
 10
755.5244865233
 20
-607.4191633548
 10
749.9305572895
 20
-612.8979626236
 10
744.2599605951
 20
-618.1485452767
 10
738.5226445937
 20
-623.1617000079
 10
732.7286744869
 20
-627.9286320403
 10
726.8882148672
 20
-632.4409785554
 10
721.0115118853
 20
-636.6908233641
 10
715.1088752753
 20
-640.6707107945
 10
709.1906602674
 20
-644.3736587715
 10
703.2672494218
 20
-647.7931710663
 10
697.349034414
 20
-650.9232486923
 10
691.4463978039
 20
-653.7584004297
 10
685.5696948221
 20
-656.293652459
 10
679.7292352024
 20
-658.5245570867
 10
673.9352650956
 20
-660.4472005479
 10
668.1979490941
 20
-662.0582098727
 10
662.5273523998
 20
-663.3547588033
 10
656.933423166
 20
-664.3345727524
 10
651.4259750455
 20
-664.9959327933
 10
646.0146699737
 20
-665.3376786758
 10
640.7090012186
 20
-665.3592108615
 10
635.518276726
 20
-665.0604915756
 10
630.4516027904
 20
-664.4420448732
 10
625.5178680797
 20
-663.5049557201
 10
620.7257280409
 20
-662.2508680889
 10
616.0835897162
 20
-660.6819820756
 10
611.5995969935
 20
-658.8010500393
 10
607.2816163197
 20
-656.611371774
 10
606.237081581
 20
-656.0208411966
  0
LWPOLYLINE
  5
BC
330
1F
100
AcDbEntity
  8
0
  6
Continuous
 62
     7
370
    25
100
AcDbPolyline
 90
       85
 70
   128
 43
0.0
 10
875.5523622974
 20
-300.5520953952
 10
876.1379888283
 20
-300.8934517565
 10
880.6437196989
 20
-303.7491522715
 10
884.9662819666
 20
-306.904721713
 10
889.0994083292
 20
-310.3555848072
 10
893.0371061486
 20
-314.0967381323
 10
896.7736661395
 20
-318.1227573738
 10
900.3036706471
 20
-322.4278051886
 10
903.6220015024
 20
-327.0056396689
 10
906.7238474428
 20
-331.8496233925
 10
909.6047110882
 20
-336.952733046
 10
912.2604154618
 20
-342.3075696082
 10
914.6871100462
 20
-347.9063690781
 10
916.8812763661
 20
-353.7410137317
 10
918.8397330902
 20
-359.8030438921
 10
920.5596406434
 20
-366.083670195
 10
922.0385053243
 20
-372.5737863328
 10
923.2741829204
 20
-379.2639822574
 10
924.2648818173
 20
-386.1445578245
 10
925.0091655964
 20
-393.2055368572
 10
925.5059551173
 20
-400.436681611
 10
925.7545300827
 20
-407.8275076172
 10
925.7545300827
 20
-415.3672988848
 10
925.5059551173
 20
-423.0451234371
 10
925.0091655964
 20
-430.8498491627
 10
924.2648818173
 20
-438.7701599554
 10
923.2741829204
 20
-446.7945721216
 10
922.0385053243
 20
-454.9114510309
 10
920.5596406434
 20
-463.1090279849
 10
918.8397330902
 20
-471.3754172806
 10
916.8812763661
 20
-479.6986334439
 10
914.6871100462
 20
-488.066608607
 10
912.2604154618
 20
-496.467210006
 10
909.6047110882
 20
-504.8882575719
 10
906.7238474428
 20
-513.3175415908
 10
903.6220015024
 20
-521.7428404066
 10
900.3036706471
 20
-530.1519381417
 10
896.7736661395
 20
-538.5326424082
 10
893.0371061486
 20
-546.8728019862
 10
889.0994083292
 20
-555.1603244415
 10
884.9662819666
 20
-563.3831936588
 10
880.6437196989
 20
-571.5294872641
 10
876.1379888283
 20
-579.5873939102
 10
871.4556222336
 20
-587.5452304029
 10
866.6034088989
 20
-595.3914586402
 10
861.5883840696
 20
-603.114702341
 10
856.4178190522
 20
-610.7037635405
 10
851.0992106718
 20
-618.1476388254
 10
845.6402704019
 20
-625.4355352882
 10
840.0489131842
 20
-632.5568861758
 10
834.333245952
 20
-639.5013662101
 10
828.5015558764
 20
-646.258906559
 10
822.5622983505
 20
-652.819709435
 10
816.52408473
 20
-659.1742623013
 10
810.3956698472
 20
-665.3133516635
 10
804.1859393179
 20
-671.2280764292
 10
797.9038966578
 20
-676.9098608127
 10
791.558650228
 20
-682.3504667699
 10
785.1594000294
 20
-687.5420059424
 10
778.7154243629
 20
-692.4769510946
 10
772.2360663772
 20
-697.1481470279
 10
765.7307205219
 20
-701.5488209546
 10
759.2088189267
 20
-705.6725923184
 10
752.6798177252
 20
-709.513482045
 10
746.1531833452
 20
-713.0659212115
 10
739.6383787824
 20
-716.3247591206
 10
733.1448498807
 20
-719.2852707691
 10
726.6820116363
 20
-721.943163698
 10
720.2592345466
 20
-724.2945842166
 10
713.8858310245
 20
-726.3361229901
 10
707.5710418957
 20
-728.0648199823
 10
701.3240230009
 20
-729.4781687479
 10
695.1538319201
 20
-730.5741200664
 10
689.0694148406
 20
-731.3510849129
 10
683.0795935855
 20
-731.807936763
 10
677.1930528229
 20
-731.9440132249
 10
671.4183274742
 20
-731.7591170008
 10
665.7637903391
 20
-731.2535161727
 10
660.2376399558
 20
-730.4279438133
 10
654.8478887141
 20
-729.2835969237
 10
649.602351238
 20
-727.8221346974
 10
644.5086330555
 20
-726.045676115
 10
639.5741195708
 20
-723.9567968715
 10
634.8059653568
 20
-721.5585256423
 10
633.0720696332
 20
-720.5857936498
  0
LWPOLYLINE
  5
BD
330
1F
100
AcDbEntity
  8
0
  6
Continuous
 62
     7
370
    25
100
AcDbPolyline
 90
      117
 70
   128
 43
0.0
 10
761.7129265614
 20
-284.5507784715
 10
761.8248762502
 20
-284.5097486322
 10
768.2241264489
 20
-282.3128707922
 10
774.5693728786
 20
-280.4274111613
 10
780.8514155388
 20
-278.8561034759
 10
787.061146068
 20
-277.6012259817
 10
793.1895609508
 20
-276.6645981312
 10
799.2277745714
 20
-276.0475779452
 10
805.1670320973
 20
-275.751060044
 10
810.9987221728
 20
-275.7754743503
 10
816.714389405
 20
-276.1207854656
 10
822.3057466228
 20
-276.7864927218
 10
827.7646868926
 20
-277.771630907
 10
833.0832952731
 20
-279.074771665
 10
838.2538602904
 20
-280.6940255664
 10
843.2688851198
 20
-282.6270448477
 10
848.1210984545
 20
-284.8710268159
 10
852.8034650491
 20
-287.4227179115
 10
857.3091959198
 20
-290.2784184264
 10
861.6317581874
 20
-293.433987868
 10
865.76488455
 20
-296.8848509621
 10
869.7025823695
 20
-300.6260042872
 10
873.4391423604
 20
-304.6520235287
 10
876.969146868
 20
-308.9570713435
 10
880.2874777232
 20
-313.5349058239
 10
883.3893236636
 20
-318.3788895474
 10
886.270187309
 20
-323.4819992009
 10
888.9258916827
 20
-328.8368357631
 10
891.352586267
 20
-334.435635233
 10
893.5467525869
 20
-340.2702798867
 10
895.505209311
 20
-346.332310047
 10
897.2251168642
 20
-352.6129363499
 10
898.7039815451
 20
-359.1030524877
 10
899.9396591412
 20
-365.7932484124
 10
900.9303580381
 20
-372.6738239794
 10
901.6746418172
 20
-379.7348030121
 10
902.1714313381
 20
-386.9659477659
 10
902.4200063036
 20
-394.3567737721
 10
902.4200063036
 20
-401.8965650397
 10
902.1714313381
 20
-409.5743895921
 10
901.6746418172
 20
-417.3791153176
 10
900.9303580381
 20
-425.2994261103
 10
899.9396591412
 20
-433.3238382765
 10
898.7039815451
 20
-441.4407171858
 10
897.2251168642
 20
-449.6382941398
 10
895.505209311
 20
-457.9046834355
 10
893.5467525869
 20
-466.2278995988
 10
891.352586267
 20
-474.595874762
 10
888.9258916827
 20
-482.9964761609
 10
886.270187309
 20
-491.4175237268
 10
883.3893236636
 20
-499.8468077457
 10
880.2874777232
 20
-508.2721065616
 10
876.969146868
 20
-516.6812042967
 10
873.4391423604
 20
-525.0619085632
 10
869.7025823695
 20
-533.4020681411
 10
865.76488455
 20
-541.6895905964
 10
861.6317581874
 20
-549.9124598138
 10
857.3091959198
 20
-558.058753419
 10
852.8034650491
 20
-566.1166600651
 10
848.1210984545
 20
-574.0744965579
 10
843.2688851197
 20
-581.9207247951
 10
838.2538602904
 20
-589.643968496
 10
833.0832952731
 20
-597.2330296955
 10
827.7646868926
 20
-604.6769049804
 10
822.3057466228
 20
-611.9648014432
 10
816.714389405
 20
-619.0861523307
 10
810.9987221728
 20
-626.030632365
 10
805.1670320973
 20
-632.7881727139
 10
799.2277745714
 20
-639.34897559
 10
793.1895609508
 20
-645.7035284562
 10
787.061146068
 20
-651.8426178185
 10
780.8514155388
 20
-657.7573425841
 10
774.5693728786
 20
-663.4391269676
 10
768.2241264489
 20
-668.8797329249
 10
761.8248762502
 20
-674.0712720973
 10
755.3809005837
 20
-679.0062172495
 10
748.901542598
 20
-683.6774131828
 10
742.3961967428
 20
-688.0780871096
 10
735.8742951475
 20
-692.2018584734
 10
729.3452939461
 20
-696.0427481999
 10
722.818659566
 20
-699.5951873664
 10
716.3038550033
 20
-702.8540252756
 10
709.8103261016
 20
-705.814536924
 10
703.3474878571
 20
-708.4724298529
 10
696.9247107674
 20
-710.8238503715
 10
690.5513072453
 20
-712.865389145
 10
684.2365181166
 20
-714.5940861372
 10
677.9894992217
 20
-716.0074349029
 10
671.819308141
 20
-717.1033862213
 10
665.7348910615
 20
-717.8803510679
 10
659.7450698063
 20
-718.3372029179
 10
653.8585290437
 20
-718.4732793798
 10
648.083803695
 20
-718.2883831558
 10
642.4292665599
 20
-717.7827823276
 10
636.9031161766
 20
-716.9572099682
 10
631.5133649349
 20
-715.8128630786
 10
626.2678274589
 20
-714.3514008523
 10
621.1741092763
 20
-712.5749422699
 10
616.2395957916
 20
-710.4860630265
 10
611.4714415777
 20
-708.0877917972
 10
606.8765600022
 20
-705.3836058461
 10
602.4616132041
 20
-702.3774259843
 10
598.2330024344
 20
-699.0736108852
 10
594.1968587742
 20
-695.4769507648
 10
590.3590342462
 20
-691.5926604365
 10
586.7250933289
 20
-687.4263717499
 10
583.3003048892
 20
-682.9841254253
 10
580.089634543
 20
-678.2723622951
 10
577.0977374554
 20
-673.2979139656
 10
574.328951591
 20
-668.0679929111
 10
571.7872914248
 20
-662.5901820173
 10
569.4764421208
 20
-656.8724235862
 10
567.3997541899
 20
-650.923007821
 10
565.5602386308
 20
-644.7505608057
 10
563.9605625653
 20
-638.3640319984
 10
562.6030453707
 20
-631.7726812554
 10
562.2863045888
 20
-630.0052508216
  0
LWPOLYLINE
  5
BE
330
1F
100
AcDbEntity
  8
0
  6
Continuous
 62
     7
370
    25
100
AcDbPolyline
 90
       95
 70
   128
 43
0.0
 10
800.8307311431
 20
-300.8454545775
 10
803.4063071536
 20
-300.9335145218
 10
808.7636985401
 20
-301.357032649
 10
813.9932877224
 20
-302.1021530177
 10
819.0864824993
 20
-303.1676513971
 10
824.034914765
 20
-304.5517771762
 10
828.8304542584
 20
-306.25225624
 10
833.4652219206
 20
-308.2662947058
 10
837.9316028406
 20
-310.5905835136
 10
842.2222587662
 20
-313.2213038632
 10
846.330140161
 20
-316.1541334879
 10
850.2484977867
 20
-319.3842537563
 10
853.970893792
 20
-322.9063575892
 10
857.49121229
 20
-326.7146581794
 10
860.8036694066
 20
-330.8028984989
 10
863.9028227836
 20
-335.1643615797
 10
866.78358052
 20
-339.7918815494
 10
869.4412095385
 20
-344.6778554048
 10
871.8713433616
 20
-349.8142555036
 10
874.0699892857
 20
-355.1926427541
 10
876.0335349415
 20
-360.8041804801
 10
877.7587542284
 20
-366.6396489398
 10
879.2428126159
 20
-372.6894604738
 10
880.4832717998
 20
-378.9436752578
 10
881.478093709
 20
-385.3920176332
 10
882.2256438536
 20
-392.0238929905
 10
882.7246940108
 20
-398.8284051759
 10
882.9744242425
 20
-405.7943743936
 10
882.9744242425
 20
-412.9103555746
 10
882.7246940108
 20
-420.1646571805
 10
882.2256438536
 20
-427.5453604128
 10
881.478093709
 20
-435.0403387954
 10
880.4832717998
 20
-442.6372780986
 10
879.2428126159
 20
-450.323696571
 10
877.7587542284
 20
-458.0869654473
 10
876.0335349415
 20
-465.914329697
 10
874.0699892857
 20
-473.7929289813
 10
871.8713433616
 20
-481.7098187823
 10
869.4412095385
 20
-489.6519916707
 10
866.78358052
 20
-497.6063986774
 10
863.9028227836
 20
-505.5599707325
 10
860.8036694066
 20
-513.4996401381
 10
857.49121229
 20
-521.4123620382
 10
853.970893792
 20
-529.2851358514
 10
850.2484977867
 20
-537.1050266311
 10
846.330140161
 20
-544.8591863172
 10
842.2222587662
 20
-552.5348748457
 10
837.9316028406
 20
-560.1194810806
 10
833.4652219206
 20
-567.6005435337
 10
828.8304542584
 20
-574.965770839
 10
824.034914765
 20
-582.2030619474
 10
819.0864824993
 20
-589.3005260087
 10
813.9932877224
 20
-596.246501908
 10
808.7636985401
 20
-603.0295774251
 10
803.4063071536
 20
-609.6386079849
 10
797.9299157428
 20
-616.0627349673
 10
792.3435220046
 20
-622.2914035487
 10
786.6563043691
 20
-628.314380043
 10
780.87760692
 20
-634.1217687155
 10
775.016924042
 20
-639.704028042
 10
769.0838848217
 20
-645.051986385
 10
763.088237227
 20
-650.156857063
 10
757.0398320911
 20
-655.0102527869
 10
750.9486069277
 20
-659.6041994403
 10
744.8245696039
 20
-663.9311491808
 10
738.6777818968
 20
-667.9839928414
 10
732.5183429626
 20
-671.7560716107
 10
726.3563727432
 20
-675.241187973
 10
720.2019953395
 20
-678.4336158914
 10
714.0653223774
 20
-681.3281102152
 10
707.9564363945
 20
-683.9199152978
 10
701.8853742744
 20
-686.2047728103
 10
695.8621107562
 20
-688.1789287377
 10
689.8965420462
 20
-689.8391395471
 10
683.9984695579
 20
-691.1826775165
 10
678.1775838091
 20
-692.2073352164
 10
672.4434484997
 20
-692.9114291371
 10
666.8054847989
 20
-693.293802454
 10
661.2729558664
 20
-693.3538269288
 10
655.8549516327
 20
-693.0914039414
 10
650.5603738644
 20
-692.5069646521
 10
645.397921539
 20
-691.6014692931
 10
640.376076552
 20
-690.3764055909
 10
635.5030897816
 20
-688.833786322
 10
630.7869675323
 20
-686.9761460058
 10
626.2354583805
 20
-684.8065367404
 10
621.8560404438
 20
-682.3285231882
 10
617.6559090944
 20
-679.5461767189
 10
613.641965137
 20
-676.4640687204
 10
609.8208034711
 20
-673.0872630882
 10
606.1987022552
 20
-669.4213079049
 10
602.7816125921
 20
-665.4722263254
 10
599.5751487512
 20
-661.2465066804
 10
596.5845789442
 20
-656.7510918159
 10
595.9592246118
 20
-655.7317655837
  0
LWPOLYLINE
  5
BF
330
1F
100
AcDbEntity
  8
0
  6
Continuous
 62
     7
370
    25
100
AcDbPolyline
 90
       45
 70
   128
 43
0.0
 10
614.3050732904
 20
-573.6772915664
 10
614.42882664
 20
-567.1930572643
 10
614.7998409881
 20
-560.5788142331
 10
615.41737972
 20
-553.84769444
 10
616.2802167698
 20
-547.0130619004
 10
617.3866390542
 20
-540.0884861444
 10
618.7344498744
 20
-533.0877152763
 10
620.3209732766
 20
-526.0246486787
 10
622.1430593655
 20
-518.9133094164
 10
624.1970905579
 20
-511.7678163953
 10
626.4789887649
 20
-504.6023563304
 10
628.9842234889
 20
-497.4311555794
 10
631.7078208182
 20
-490.2684518976
 10
634.6443733025
 20
-483.1284661701
 10
637.7880506885
 20
-476.0253741777
 10
641.1326114959
 20
-468.9732784519
 10
644.6714154088
 20
-461.9861802763
 10
648.3974364595
 20
-455.0779518873
 10
652.3032769781
 20
-448.262308933
 10
656.3811822798
 20
-441.5527832416
 10
660.6230560612
 20
-434.9626959553
 10
665.0204764745
 20
-428.5051310825
 10
669.5647128485
 20
-422.1929095203
 10
674.2467430225
 20
-416.0385636005
 10
679.0572712589
 20
-410.0543122071
 10
683.9867466994
 20
-404.2520365175
 10
689.0253823266
 20
-398.6432564129
 10
694.1631743959
 20
-393.239107607
 10
699.3899222967
 20
-388.050319537
 10
704.695248805
 20
-383.0871940614
 10
710.068620686
 20
-378.3595850064
 10
715.4993696072
 20
-373.8768786022
 10
720.9767133193
 20
-369.6479748473
 10
726.4897770634
 20
-365.6812698388
 10
732.0276151618
 20
-361.9846391022
 10
737.5792327495
 20
-358.5654219558
 10
743.1336076036
 20
-355.4304069386
 10
748.6797120271
 20
-352.5858183328
 10
754.206534743
 20
-350.0373038057
 10
759.7031027563
 20
-347.7899231971
 10
765.1585031401
 20
-345.8481384731
 10
770.5619047018
 20
-344.2158048676
 10
775.9025794879
 20
-342.8961632277
 10
781.1699240828
 20
-341.89183358
 10
785.2179652014
 20
-341.3289812762
  0
LWPOLYLINE
  5
C0
330
1F
100
AcDbEntity
  8
0
  6
Continuous
 62
     7
370
    25
100
AcDbPolyline
 90
       10
 70
   128
 43
0.0
 10
623.2094358351
 20
-621.9663930461
 10
622.1430593655
 20
-619.391727619
 10
620.3209732766
 20
-614.3841241757
 10
618.7344498744
 20
-609.1528185081
 10
617.3866390542
 20
-603.7081968894
 10
616.2802167698
 20
-598.0610691119
 10
615.41737972
 20
-592.2226470249
 10
614.7998409881
 20
-586.2045222752
 10
614.42882664
 20
-580.0186432923
 10
614.3050732904
 20
-573.6772915664
  0
LWPOLYLINE
  5
C1
330
1F
100
AcDbEntity
  8
0
  6
Continuous
 62
     7
370
    25
100
AcDbPolyline
 90
       36
 70
   128
 43
0.0
 10
614.5277706458
 20
-582.1495546469
 10
614.8027071791
 20
-577.4868661212
 10
615.4239200881
 20
-570.3489192158
 10
616.2920713187
 20
-563.104685697
 10
617.4056173298
 20
-555.7670455476
 10
618.762578277
 20
-548.349044824
 10
620.3605415335
 20
-540.8638724608
 10
622.1966659788
 20
-533.3248368212
 10
624.2676870507
 20
-525.7453420355
 10
626.5699225493
 20
-518.138864169
 10
629.0992791839
 20
-510.5189272615
 10
631.8512598507
 20
-502.8990792829
 10
634.8209716285
 20
-495.2928680448
 10
638.0031344781
 20
-487.7138171132
 10
641.3920906301
 20
-480.175401764
 10
644.9818146442
 20
-472.6910250248
 10
648.7659241221
 20
-465.2739938441
 10
652.7376910551
 20
-457.9374954328
 10
656.8900537867
 20
-450.6945738173
 10
661.2156295674
 20
-443.5581066479
 10
665.7067276813
 20
-436.5407823029
 10
670.3553631199
 20
-429.6550773287
 10
675.1532707791
 20
-422.9132342576
 10
680.091920154
 20
-416.3272398406
 10
685.1625305064
 20
-409.9088037353
 10
690.356086476
 20
-403.669337687
 10
695.66335411
 20
-397.6199352385
 10
701.07489728
 20
-391.7713520066
 10
706.5810944598
 20
-386.133986559
 10
712.1721558319
 20
-380.7178619257
 10
717.838140693
 20
-375.5326077785
 10
723.568975129
 20
-370.5874433102
 10
729.3544699252
 20
-365.8911608427
 10
735.1843386831
 20
-361.4521101948
 10
741.0482161088
 20
-357.2781838367
 10
746.3959018693
 20
-353.7225009217
  0
ENDSEC
  0
SECTION
  2
OBJECTS
  0
DICTIONARY
  5
C
330
0
100
AcDbDictionary
281
     1
  3
ACAD_GROUP
350
D
  3
ACAD_LAYOUT
350
1A
  3
ACAD_MLINESTYLE
350
17
  3
ACAD_PLOTSETTINGS
350
19
  3
ACAD_PLOTSTYLENAME
350
E
  3
ACAD_SCALELIST
350
47
  0
DICTIONARY
  5
D
102
{ACAD_REACTORS
330
C
102
}
330
C
100
AcDbDictionary
281
     1
  0
DICTIONARY
  5
1A
102
{ACAD_REACTORS
330
C
102
}
330
C
100
AcDbDictionary
281
     1
  3
Layout1
350
1E
  3
Layout2
350
26
  3
Model
350
22
  0
DICTIONARY
  5
17
102
{ACAD_REACTORS
330
C
102
}
330
C
100
AcDbDictionary
281
     1
  3
Standard
350
18
  0
DICTIONARY
  5
19
102
{ACAD_REACTORS
330
C
102
}
330
C
100
AcDbDictionary
281
     1
  0
ACDBDICTIONARYWDFLT
  5
E
102
{ACAD_REACTORS
330
C
102
}
330
C
100
AcDbDictionary
281
     1
  3
Normal
350
F
100
AcDbDictionaryWithDefault
340
F
  0
DICTIONARY
  5
47
102
{ACAD_REACTORS
330
C
102
}
330
C
100
AcDbDictionary
281
     1
  3
A0
350
48
  3
A1
350
49
  3
A2
350
4A
  3
A3
350
4B
  3
A4
350
4C
  3
A5
350
4D
  3
A6
350
4E
  3
A7
350
4F
  3
A8
350
50
  3
A9
350
51
  3
B0
350
52
  3
B1
350
53
  3
B2
350
54
  3
B3
350
55
  3
B4
350
56
  3
B5
350
57
  3
B6
350
58
  3
B7
350
59
  3
B8
350
5A
  3
B9
350
5B
  3
C0
350
5C
  3
C1
350
5D
  3
C2
350
5E
  3
C3
350
5F
  3
C4
350
60
  3
C5
350
61
  3
C6
350
62
  3
C7
350
63
  3
C8
350
64
  3
C9
350
65
  3
D0
350
66
  3
D1
350
67
  3
D2
350
68
  0
LAYOUT
  5
1E
102
{ACAD_REACTORS
330
1A
102
}
330
1A
100
AcDbPlotSettings
  1

  2
none_device
  4

  6

 40
0.0
 41
0.0
 42
0.0
 43
0.0
 44
0.0
 45
0.0
 46
0.0
 47
0.0
 48
0.0
 49
0.0
140
0.0
141
0.0
142
1.0
143
1.0
 70
   688
 72
     1
 73
     0
 74
     5
  7

 75
    16
147
1.0
148
0.0
149
0.0
100
AcDbLayout
  1
Layout1
 70
     1
 71
     1
 10
0.0
 20
0.0
 11
420.0
 21
297.0
 12
0.0
 22
0.0
 32
0.0
 14
1.0000000000E+20
 24
1.0000000000E+20
 34
1.0000000000E+20
 15
-1.0000000000E+20
 25
-1.0000000000E+20
 35
-1.0000000000E+20
146
0.0
 13
0.0
 23
0.0
 33
0.0
 16
1.0
 26
0.0
 36
0.0
 17
0.0
 27
1.0
 37
0.0
 76
     0
330
1B
  0
LAYOUT
  5
26
102
{ACAD_REACTORS
330
1A
102
}
330
1A
100
AcDbPlotSettings
  1

  2
none_device
  4

  6

 40
0.0
 41
0.0
 42
0.0
 43
0.0
 44
0.0
 45
0.0
 46
0.0
 47
0.0
 48
0.0
 49
0.0
140
0.0
141
0.0
142
1.0
143
1.0
 70
   688
 72
     1
 73
     0
 74
     5
  7

 75
    16
147
1.0
148
0.0
149
0.0
100
AcDbLayout
  1
Layout2
 70
     1
 71
     2
 10
0.0
 20
0.0
 11
0.0
 21
0.0
 12
0.0
 22
0.0
 32
0.0
 14
0.0
 24
0.0
 34
0.0
 15
0.0
 25
0.0
 35
0.0
146
0.0
 13
0.0
 23
0.0
 33
0.0
 16
1.0
 26
0.0
 36
0.0
 17
0.0
 27
1.0
 37
0.0
 76
     0
330
23
  0
LAYOUT
  5
22
102
{ACAD_REACTORS
330
1A
102
}
330
1A
100
AcDbPlotSettings
  1

  2
none_device
  4
Letter_(8.50_x_11.00_Inches)
  6

 40
6.35
 41
6.35
 42
6.35000508
 43
6.35000508
 44
215.9
 45
279.4
 46
0.0
 47
0.0
 48
0.0
 49
0.0
140
0.0
141
0.0
142
1.0
143
1.0
 70
  1712
 72
     1
 73
     0
 74
     0
  7

 75
     0
147
1.0
148
0.0
149
0.0
100
AcDbLayout
  1
Model
 70
     1
 71
     0
 10
0.0
 20
0.0
 11
279.4
 21
215.9
 12
0.0
 22
0.0
 32
0.0
 14
0.0
 24
0.0
 34
0.0
 15
279.4
 25
215.9
 35
0.0
146
0.0
 13
0.0
 23
0.0
 33
0.0
 16
1.0
 26
0.0
 36
0.0
 17
0.0
 27
1.0
 37
0.0
 76
     0
330
1F
331
29
  0
MLINESTYLE
  5
18
102
{ACAD_REACTORS
330
17
102
}
330
17
100
AcDbMlineStyle
  2
Standard
 70
     0
  3

 62
   256
 51
90.0
 52
90.0
 71
     2
 49
0.5
 62
   256
  6
BYLAYER
 49
-0.5
 62
   256
  6
BYLAYER
  0
ACDBPLACEHOLDER
  5
F
102
{ACAD_REACTORS
330
E
102
}
330
E
  0
SCALE
  5
48
102
{ACAD_REACTORS
330
47
102
}
330
47
100
AcDbScale
 70
     0
300
1:1
140
1.0
141
1.0
290
     1
  0
SCALE
  5
49
102
{ACAD_REACTORS
330
47
102
}
330
47
100
AcDbScale
 70
     0
300
1:2
140
1.0
141
2.0
290
     0
  0
SCALE
  5
4A
102
{ACAD_REACTORS
330
47
102
}
330
47
100
AcDbScale
 70
     0
300
1:4
140
1.0
141
4.0
290
     0
  0
SCALE
  5
4B
102
{ACAD_REACTORS
330
47
102
}
330
47
100
AcDbScale
 70
     0
300
1:5
140
1.0
141
5.0
290
     0
  0
SCALE
  5
4C
102
{ACAD_REACTORS
330
47
102
}
330
47
100
AcDbScale
 70
     0
300
1:8
140
1.0
141
8.0
290
     0
  0
SCALE
  5
4D
102
{ACAD_REACTORS
330
47
102
}
330
47
100
AcDbScale
 70
     0
300
1:10
140
1.0
141
10.0
290
     0
  0
SCALE
  5
4E
102
{ACAD_REACTORS
330
47
102
}
330
47
100
AcDbScale
 70
     0
300
1:16
140
1.0
141
16.0
290
     0
  0
SCALE
  5
4F
102
{ACAD_REACTORS
330
47
102
}
330
47
100
AcDbScale
 70
     0
300
1:20
140
1.0
141
20.0
290
     0
  0
SCALE
  5
50
102
{ACAD_REACTORS
330
47
102
}
330
47
100
AcDbScale
 70
     0
300
1:30
140
1.0
141
30.0
290
     0
  0
SCALE
  5
51
102
{ACAD_REACTORS
330
47
102
}
330
47
100
AcDbScale
 70
     0
300
1:40
140
1.0
141
40.0
290
     0
  0
SCALE
  5
52
102
{ACAD_REACTORS
330
47
102
}
330
47
100
AcDbScale
 70
     0
300
1:50
140
1.0
141
50.0
290
     0
  0
SCALE
  5
53
102
{ACAD_REACTORS
330
47
102
}
330
47
100
AcDbScale
 70
     0
300
1:100
140
1.0
141
100.0
290
     0
  0
SCALE
  5
54
102
{ACAD_REACTORS
330
47
102
}
330
47
100
AcDbScale
 70
     0
300
2:1
140
2.0
141
1.0
290
     0
  0
SCALE
  5
55
102
{ACAD_REACTORS
330
47
102
}
330
47
100
AcDbScale
 70
     0
300
4:1
140
4.0
141
1.0
290
     0
  0
SCALE
  5
56
102
{ACAD_REACTORS
330
47
102
}
330
47
100
AcDbScale
 70
     0
300
8:1
140
8.0
141
1.0
290
     0
  0
SCALE
  5
57
102
{ACAD_REACTORS
330
47
102
}
330
47
100
AcDbScale
 70
     0
300
10:1
140
10.0
141
1.0
290
     0
  0
SCALE
  5
58
102
{ACAD_REACTORS
330
47
102
}
330
47
100
AcDbScale
 70
     0
300
100:1
140
100.0
141
1.0
290
     0
  0
SCALE
  5
59
102
{ACAD_REACTORS
330
47
102
}
330
47
100
AcDbScale
 70
     0
300
1/128" = 1'-0"
140
0.0078125
141
12.0
290
     0
  0
SCALE
  5
5A
102
{ACAD_REACTORS
330
47
102
}
330
47
100
AcDbScale
 70
     0
300
1/64" = 1'-0"
140
0.015625
141
12.0
290
     0
  0
SCALE
  5
5B
102
{ACAD_REACTORS
330
47
102
}
330
47
100
AcDbScale
 70
     0
300
1/32" = 1'-0"
140
0.03125
141
12.0
290
     0
  0
SCALE
  5
5C
102
{ACAD_REACTORS
330
47
102
}
330
47
100
AcDbScale
 70
     0
300
1/16" = 1'-0"
140
0.0625
141
12.0
290
     0
  0
SCALE
  5
5D
102
{ACAD_REACTORS
330
47
102
}
330
47
100
AcDbScale
 70
     0
300
3/32" = 1'-0"
140
0.09375
141
12.0
290
     0
  0
SCALE
  5
5E
102
{ACAD_REACTORS
330
47
102
}
330
47
100
AcDbScale
 70
     0
300
1/8" = 1'-0"
140
0.125
141
12.0
290
     0
  0
SCALE
  5
5F
102
{ACAD_REACTORS
330
47
102
}
330
47
100
AcDbScale
 70
     0
300
3/16" = 1'-0"
140
0.1875
141
12.0
290
     0
  0
SCALE
  5
60
102
{ACAD_REACTORS
330
47
102
}
330
47
100
AcDbScale
 70
     0
300
1/4" = 1'-0"
140
0.25
141
12.0
290
     0
  0
SCALE
  5
61
102
{ACAD_REACTORS
330
47
102
}
330
47
100
AcDbScale
 70
     0
300
3/8" = 1'-0"
140
0.375
141
12.0
290
     0
  0
SCALE
  5
62
102
{ACAD_REACTORS
330
47
102
}
330
47
100
AcDbScale
 70
     0
300
1/2" = 1'-0"
140
0.5
141
12.0
290
     0
  0
SCALE
  5
63
102
{ACAD_REACTORS
330
47
102
}
330
47
100
AcDbScale
 70
     0
300
3/4" = 1'-0"
140
0.75
141
12.0
290
     0
  0
SCALE
  5
64
102
{ACAD_REACTORS
330
47
102
}
330
47
100
AcDbScale
 70
     0
300
1" = 1'-0"
140
1.0
141
12.0
290
     0
  0
SCALE
  5
65
102
{ACAD_REACTORS
330
47
102
}
330
47
100
AcDbScale
 70
     0
300
1-1/2" = 1'-0"
140
1.5
141
12.0
290
     0
  0
SCALE
  5
66
102
{ACAD_REACTORS
330
47
102
}
330
47
100
AcDbScale
 70
     0
300
3" = 1'-0"
140
3.0
141
12.0
290
     0
  0
SCALE
  5
67
102
{ACAD_REACTORS
330
47
102
}
330
47
100
AcDbScale
 70
     0
300
6" = 1'-0"
140
6.0
141
12.0
290
     0
  0
SCALE
  5
68
102
{ACAD_REACTORS
330
47
102
}
330
47
100
AcDbScale
 70
     0
300
1'-0" = 1'-0"
140
12.0
141
12.0
290
     0
  0
ENDSEC
  0
EOF
